İstanbul'da Sonbahar TAB - Teoman

TAB içinde İstanbul'da Sonbahar TAB - Teoman konusu, E----------0-----------0------ B-------1-----1-----1-------- G-----2----------2----------- D----------------------------- A-0--------------------------- E----------------------------- Am Dm Am G Mevsim rüzgarları ne zaman eserse, o zaman hatırlarım Çocukluk rüyalarım Am Şeytan uçurtmalarım Am Dm Dm Am G Am Öper ...

Sponsorlu Bağlantılar

Bu sayfada toplam 7 sonuçtan 1 ile 7 arası mesajlar gösteriliyor.

Konu: İstanbul'da Sonbahar TAB - Teoman


  1. #1
    keyfici - ait Kullanıcı Resmi (Avatar)
    keyfici isimli Üye şimdilik offline konumundadır Süper Moderatör

    İstanbul'da Sonbahar TAB - Teoman

    Sponsorlu Bağlantılar


    E----------0-----------0------
    B-------1-----1-----1--------
    G-----2----------2-----------
    D-----------------------------
    A-0---------------------------
    E-----------------------------

    Am Dm
    Am G
    Mevsim rüzgarları ne zaman eserse, o zaman hatırlarım
    Çocukluk rüyalarım
    Am
    Şeytan uçurtmalarım
    Am Dm
    Dm Am G Am
    Öper beni annem yanaklarımdan güzel bir rüyada, sanki
    Sevdiklerim hayattalarken hala
    Nakarata geçis: G/c)

    ----------3--------------0---
    -------0--------------1------
    ----0--------------0---------
    -----------------------------
    ----------------3------------
    -3---------------------------

    Dm Am Dm Am
    Akşama doğru azalırsa yağmur kız kulesi ve adalar
    Dm Am F Am
    Ah burda olsan çok güzel hala istanbul da sonbahar
    Ara intro
    E--5--7--5-----------5---------------------------
    B-------------6-----------8------5-------------
    G-----------------------------7--------------
    D--------------------------------------------
    A-----------------------------------------------
    E---------------------------------------------

    Am Dm
    Am G
    Her zaman kolay sevmeden sevişmek tanımak bir vücudu
    Yavaşça öğrenmek
    Am
    Alışmak ve kaybetmek
    Am Dm
    Am G Am
    İstanbul bugün yorgun üzgün ve yaşlanmış biraz kilo almış
    Ağlamış yine rimelleri akıyor

    Nakarata geçis: G/c)

    ----------3--------------0---
    -------0--------------1------
    ----0--------------0---------
    -----------------------------
    ----------------3------------
    -3---------------------------

    Dm Am Dm
    Am
    Akşama doğru azalırsa yağmur kız kulesi ve adalar
    Dm Am F
    Am
    Ah burda olsan çok güzel hala istanbul da sonbahar

    E--5--7--5-----------5---------------------------
    B-------------6-----------8------5-------------
    G-----------------------------7--------------
    D--------------------------------------------
    A-----------------------------------------------
    E---------------------------------------------

  2. #2
    productor - ait Kullanıcı Resmi (Avatar)
    productor isimli Üye şimdilik offline konumundadır Yeni Üye

    Standart Cevap: İstanbul'da Sonbahar TAB - Teoman

    teşekkürler

  3. #3
    ruudvan01 - ait Kullanıcı Resmi (Avatar)
    ruudvan01 isimli Üye şimdilik offline konumundadır Yeni Üye

    Standart Cevap: İstanbul'da Sonbahar TAB - Teoman

    teşekkürler çok güzel

  4. #4
    _PcKoLiK_ - ait Kullanıcı Resmi (Avatar)
    _PcKoLiK_ isimli Üye şimdilik offline konumundadır Katılımcı Üye

    Standart Cevap: İstanbul'da Sonbahar TAB - Teoman

    gerçekten çok teşekkürler yine imdadıma yetiştiniz.....

  5. #5
    CEMTAN - ait Kullanıcı Resmi (Avatar)
    CEMTAN isimli Üye şimdilik offline konumundadır Yeni Üye

    Standart Cevap: İstanbul'da Sonbahar TAB - Teoman

    arkadaşlar alt yapısını gönderirmisiz

  6. #6
    makbuş - ait Kullanıcı Resmi (Avatar)
    makbuş isimli Üye şimdilik offline konumundadır Katılımcı Üye

    Standart Cevap: İstanbul'da Sonbahar TAB - Teoman

    alt yapısını gönderirseniz çok makbule gecer gerçeten çocuklar okumak istiyorlar coook (

  7. #7
    ukmode - ait Kullanıcı Resmi (Avatar)
    ukmode isimli Üye şimdilik offline konumundadır Yeni Üye

    Standart Cevap: İstanbul'da Sonbahar TAB - Teoman

    midi si varmı acaba bunun ??

Kullanıcılar bu sayfayı şu kelimelerle buldu:

mevsim rüzgarları tab, istanbulda sonbahar tab, istanbulda sonbahar akor, teoman mevsim rüzgarları tab, teoman istanbulda sonbahar tab, teoman tab, mevsim rüzgarları akor, teoman mevsim rüzgarları arpej, teoman istanbulda sonbahar akor, teoman mevsim rüzgarları akor, teoman sonbahar tab, mevsim rüzgarları ritim, mevsim rüzgarları solo tab, istanbulda son bahar akor, teoman istanbulda sonbahar altyapı
Müzisyen ilanları

Benzer Konular

  1. Sonbahar rüzgarları tsmSonbahar rüzgarları tsm

    İYİ SAHNELER GÜLE GÜLE KULANIN ARKADAŞLAR :ka19:
  2. ISTANBULDA SONBAHAR-Teoman-MD AltyapıISTANBULDA SONBAHAR-Teoman-MD Altyapı

    ISTANBULDA SONBAHAR alıntıdır.. http://www.youtube.com/watch?v=xys1XBKUDck
  3. "apron" Arkadaşımı istekleri (YAZ YAĞMURU,TAVLA,İKİMİZİN YERİNE,İSTANBUL'DA..."apron" Arkadaşımı istekleri (YAZ YAĞMURU,TAVLA,İKİMİZİN YERİNE,İSTANBUL'DA...

    "apron" Arkadaşımı istekleri (YAZ YAĞMURU,TAVLA,İKİMİZİN YERİNE,İSTANBUL'DA SONBAHAR) Güle güle kullanın.
  4. Teoman - İstanbul'da Sonbahar AkorTeoman - İstanbul'da Sonbahar Akor

    akor: Am Dm Am Mevsim rüzgarlari ne zaman eserse o zaman hatirlarim G Am Çocukluk rüyalarim, seytan uçurtmalarim Am Dm Am Öper beni annem yanaklarimdan güzel bir rüyada G Am Sanki sevdiklerim hayattalarken hala
  5. Teoman bu ne hal!!!Teoman bu ne hal!!!

    Sarhoş görmeye alıştığımız Teoman bu sefer fena dağıttı. Diskoda görenleri şok etti Devami...
Konu Puanlaması 5 üzerinden | Toplam : 0 kişi